Neon

Neon Guitar Tabs and Chords

 

 

Neon (Where the Light Is: Live in Los Angeles)

 

Neon Guitar Lesson ( In Portuguese)

 

 

Turning: C A D G B E

Intro – Part 1:

Part 1

E|------------------------------------------|
B|---4------------------9/10\9/10\9/10\9/10-|
G|---3------------------7/ 8\7/ 8\7/ 8\7/ 8-|
D|---2------------------7/ 8\7/ 8\7/ 8\7/ 8-|
A|------------------------------------------|
E|-0----7-10-7-7/9-12-0---------------------|


Part 2

E|-----------------x------------------------|
B|-10-10-10-10-10--x------------------------|
G|--8--8--8--8--8--x------------------------|
D|--8--8--8--8--8--x------------------------|
A|-----------------x------------------------|
E|--0--0--0--0--0--x------------------------|


Intro - Part 2:

Part 1 (3x)
E|------------------x--------x------------x-|
B|------------------x-10-x---x-x---10-x---x-|
G|------------------x--8-x---x-x---10-x---x-|
D|------------------x--8-x---x-x-x--8-x---x-|
A|------------------x--------x------------x-|
E|-7-10-0-7/9-12-0--x--------x------------x-|


Intro – Part 3:

Part 1
E|------------------x--------x----------x---|
B|------------------x--------x----------x---|
G|------------------x--8-x---x----8-x---x---|
D|------------------x--8-x---x----8-x---x---|
A|------------------x--7-x---x-x--7-x---x---|
E|-7-10-0-7/9-12-0--x--------x----------x---|


Part 2
E|------------------------------------------|
B|------------------------------------------|
G|---8---8-------x--------------------------|
D|---8---8-------x--------------------------|
A|---7---8-----x----------------------------|
E|-0-7--10--12------------------------------|


Part 3
E|---------x--------------------------------|
B|---------x----------x---------------------|
G|---8-x---x----8-x---x---------------------|
D|---8-x---x----8-x---x---------------------|
A|---7-x---x-x--7-x---x---------------------|
E|-0-------x----------x---------------------|


Part 2
E|------------------------------------------|
B|------------------------------------------|
G|---8---8-------x--------------------------|
D|---8---8-------x--------------------------|
A|---7---8-----x----------------------------|
E|-0-7--10--12------------------------------|


Part 4
E|---------x--------------------------------|
B|---------x-----------x--------------------|
G|---8-x---x-x---8-x---x--------------------|
D|---8-x---x-x---8-x---x--------------------|
A|---7-x---x-x-x-7-x---x--------------------|
E|-0-------x-----------x--------------------|


Part 5
E|------------------------------------------|
B|------------------------------------------|
G|---8---8--10------------------------------|
D|---8---8--10------------------------------|
A|---7---8--10------------------------------|
E|-0-7--10--12------------------------------|


Part 6
E|-----------x------------------------------|
B|-----------x-----------x------------------|
G|-----8-x---x-x---8-x---x------------------|
D|-----8-x---x-x---8-x---x------------------|
A|-----7-x---x-x-x-7-x---x------------------|
E|-0-0-------x-----------x------------------|


Part 5
E|------------------------------------------|
B|------------------------------------------|
G|---8---8--10------------------------------|
D|---8---8--10------------------------------|
A|---7---8--10------------------------------|
E|-0-7--10--12------------------------------|


Part 7
E|-x---------x-----------x------------------|
B|-x---------x-----------x------------------|
G|-x---8-x---x-x---8-x---x-x----------------|
D|-x---8-x---x-x---8-x---x-x----------------|
A|-x-x-7-x---x-x-x-7-x---x-x-x--------------|
E|-x---------x-----------x------------------|


Part 8
E|------------------------------------------|
B|------------------------------------------|
G|-8---10-10/11--10\8-----------------------|
D|-8---10-10/11--10\8-----------------------|
A|-7-0--9--9/10---9\7-----------------------|
E|------------------------------------------|


Part 9
E|---------x-----------x------------------|
B|---------x-----------x------------------|
G|---8-x---x-x---8-x---x-x----------------|
D|---8-x---x-x---8-x---x-x----------------|
A|-0-7-x---x-x-0-7-x---x-x-x--------------|
E|---------x-----------x------------------|


Part 10:
E|----------------------------------------|
B|----------------------------------------|
G|-10---10/11--10\8--x--------------------|
D|-10---10/11--10\8--x--------------------|
A|--9-x--9/10---9\7--x--------------------|
E|----------------------------------------|


Intro – Part 4:

Part 1
E|-------x--------x-----------------------|
B|-------x----8-8-x-----------------------|
G|---8---x----7-7-x-----------------------|
D|---8---x-x--0-0-x-----------------------|
A|---7---x--------x-----------------------|
E|-0---7-x---10---x-7-10-9-7/9-12-14b15p0-|


Part 2
E|-------x--------x-----------------------|
B|-------x----8-8-x-----------------------|
G|---8-8-x----7-7-x-----------------------|
D|---8-8-x-x--0-0-x-----------------------|
A|---7-7-x--------x-----------------------|
E|-0---7-x---10---x-7-10-12-9~-7-0--------|


Part 3
E|-------x--------x-----------------------|
B|-------x----8-8-x-----------------------|
G|---8-8-x----7-7-x-----------------------|
D|---8-8-x-x--0-0-x-----------------------|
A|---7-7-x--------x-----------------------|
E|-0---7-x---10---x-7-10-0-9-12-15~-------|


Part 4
E|-------x--------x-----------------------|
B|-------x----8-8-x-----------------------|
G|-----8-x----7-7-x-----------------------|
D|-----8-x-x--0-0-x-----------------------|
A|-----7-x--------x-----------------------|
E|-0-0-7-x---10---x-----------------------|


Intro – Part 5:

Part 1
E|----------------------------------------|
B|----------------------------------------|
G|----------------------------------------|
D|----------------------------------------|
A|----------------------------------------|
E|-7-10-0-12-0-10-12----------------------|


Part 2
E|----------------------------------------|
B|----------------------------------------|
G|----------------------------------------|
D|----------------------------------------|
A|----------------------------------------|
E|-0-10-12-0-10-12-0-12-0-10-12-0-15~-15~-|


Part 3
E|----------------------------------------|
B|----------------------------------------|
G|----------------------------------------|
D|----------------------------------------|
A|----------------------------------------|
E|-0-10-12-0-10-12-0-10-12-0--------------|


Part 4
E|----------------------------------------|
B|----------------------------------------|
G|----------------------------------------|
D|----------------------------------------|
A|----------------------------------------|
E|-15-0-15b17-15~-------------------------|


Part 5
E|----------------------------------------|
B|----------------------------------------|
G|----------------------------------------|
D|----------------------------------------|
A|----------------------------------------|
E|-0-10-12-0-10-12-0-10-12-0-12-0---------|


Part 6
E|----------------------------------------|
B|----------------------------------------|
G|----------------------------------------|
D|----------------------------------------|
A|----------------------------------------|
E|-15-0-17-0-17b19-17-15-17-15\12---------|


Part 7
E|----------------------------------------|
B|----------------------------------------|
G|----------------------------------------|
D|----------------------------------------|
A|----------------------------------------|
E|-0-10-12-15~-12-10-6-7b8r7--------------|


Intro – Part 6:

Part 1
E|-------x--------x-----------------------|
B|-------x----8-8-x-----------------------|
G|-----8-x----7-7-x---------------x-------|
D|-----8-x----0-0-x---------------x-------|
A|-----7-x--------x---------------x-------|
E|-0-0-7-x-0-10---x-7-10-9-7/9-12---------|


Part 2
E|-------x------x-------------------------|
B|-------x--8-8-x-------------------------|
G|---8-8-x--7-7-x-------------------------|
D|---8-8-x--0-0-x-------------------------|
A|---7-7-x------x-------------------------|
E|-0---7-x-10---x-7-10-0-12~-12~-0--------|


Part 3
E|-------x------x-------------------------|
B|-------x--8-8-x-------------------------|
G|---8-8-x--7-7-x-------------------------|
D|---8-8-x--0-0-x-------------------------|
A|---7-7-x------x-------------------------|
E|-0---7-x-10---x-7-10-0-7/9-9-12-12------|


Part 4
E|-------x------x-------------------------|
B|-------x--8-8-x-------------------------|
G|---8-8-x--7-7-x-----x-------------------|
D|---8-8-x--0-0-x-----x-------------------|
A|---7-7-x------x-----x-------------------|
E|-0---7-x-10---x-x-x---12\0--------------|


1st Part:

(C5  Eb9  Fm7(11)  Ab9  Bb6(9) ) 2x

C5            Eb9
   When sky blue gets
 Fm7(11)    Ab9  Bb6(9)
Dark enough
C5             Eb9
   To see the colors of 
Fm7(11)           Ab9   Bb6(9)
        The city lights
C5         Eb9
   A trail of ruby red 
     Fm7(11)  Ab9  Bb6(9)
And diamond white
 C5
Hits her like 
   Eb9    Fm7(11)  Ab9  Bb6(9)
A sunrise

1st Part Fingering:

Part 1
   C5                   Eb9
E|-----------x------------------x-----------|
B|---------8-x----------------4-x-----------|
G|-----------x-10-----------3---x-----------|
D|---10-10---x------0-----3-----x-5---6-----|
A|-----------x------------------x-----------|
E|-0---------x----0-----3-------x---0-------|

   
Part 2
   Fm7(11)           Ab9     Bb6(9)
E|---------x--------------------------------|
B|-------4-x---------------9-----------8----|
G|-----3---x-3-----------8-----------7------|
D|---6-----x-----0-----8----------10--------|
A|---------x--------------------------------|
E|-5-------x---0-----8-------8/10-----------|


Pre-Chorus:

     Ab6(9)
She comes and goes
     Gm7(11)
And comes and goes
      Gb6(9)
Like no one can

Pre-Chorus Fingering:

Part 1
   Ab6(9)
E|------------------------------------------|
B|-------6-x---------6-x---------6----------|
G|-----5-----5-----5-----5-----5------------|
D|---8-----------8-----------8--------------|
A|------------------------------------------|
E|-8-----------8-----------8----------------|


Part 2
   Gm7(11)
E|------------------------------------------|
B|-------6-x---------6-x---------6----------|
G|-----5-----5-----5-----5-----5------------|
D|---8-----------8-----------8--------------|
A|------------------------------------------|
E|-7-----------7-----------7----------------|


Part 3
   Gb6(9)
E|------------------------------------------|
B|-------4-x---------4-x---------4----------|
G|-----3-----3-----3-----3-----3------------|
D|---6-----------6-----------6--------------|
A|------------------------------------------|
E|-6-----------6-----------6----------------|


Part 4
   Gb6(9)
E|------------------------------------------|
B|-------6-x--------6-----------------------|
G|-----5-----5------5-----------------------|
D|---8-----------8--8-----------------------|
A|------------------------------------------|
E|-8-----------8----8--12\0-----------------|


2nd Part:

(C5  Eb9  Fm7(11)  Ab9  Bb6(9) ) 2x

   C5
Tonight she's out 
    Eb9     Fm7(11)  Ab9  Bb6(9)
To lose herself
     C5
And find a high 
    Eb9         Fm7(11)  Ab9  Bb6(9)
On peachtree street
C5
   From mixed drinks 
    Eb9
To techno beats
     Fm7(11)  Ab9  Bb6(9)
It's always 
 C5      Eb9      Fm7(11)  Ab9  Bb6(9)
Heavy into everything


2nd Part Fingering:

Part 1
   C5                   Eb9
E|-----------x------------------x-----------|
B|---------8-x----------------4-x-----------|
G|-----------x-10-----------3---x-----------|
D|---10-10---x------0-----3-----x-5---6-----|
A|-----------x------------------x-----------|
E|-0---------x----0-----3-------x---0-------|

   
Part 2
   Fm7(11)           Ab9     Bb6(9)
E|---------x--------------------------------|
B|-------4-x---------------9-----------8----|
G|-----3---x-3-----------8-----------7------|
D|---6-----x-----0-----8----------10--------|
A|---------x--------------------------------|
E|-5-------x---0-----8-------8/10-----------|


Part 1
   C5                   Eb9
E|-----------x------------------x-----------|
B|---------8-x----------------4-x-----------|
G|-----------x-10-----------3---x-----------|
D|---10-10---x------0-----3-----x-5---6-----|
A|-----------x------------------x-----------|
E|-0---------x----0-----3-------x---0-------|

      
Part 3
   Fm7(11)           Ab9      Bb6(9)
E|-----------------------x-x--------x-x-----|
B|-------4-x---------9-9-x-x---8--8-x-x-----|
G|-----3-----3-------8-8-x-x---7--7-x-x-----|
D|---6-----------0---8-8-x-x--10-10-x-x-----|
A|-----------------------x-x--------x-x-----|
E|-5-----------0-----8-8-x-x--10-10-x-x-----|


Pre-Chorus:

     Ab6(9)
She comes and goes
     Gm7(11)
And comes and goes
      Gb6(9)
Like no one can

     Ab6(9)
She comes and goes
       Gm7(11)
And no one knows
        Fm7(11)   Gm7(11)  Ab
She's slipping through my hands

She's always buzzing just like

Pre Chorus Fingering:

Part 1  
   Ab6(9)
E|------------------------------------------|
B|-------6-x---------6-x---------6----------|
G|-----5-----5-----5-----5-----5------------|
D|---8-----------8-----------8--------------|
A|------------------------------------------|
E|-8-----------8-----------8----------------|


Part 2 
   Gm7(11)
E|------------------------------------------|
B|-------6-x---------6-x---------6----------|
G|-----5-----5-----5-----5-----5------------|
D|---8-----------8-----------8--------------|
A|------------------------------------------|
E|-7-----------7-----------7----------------|


Part 3 (2x)
   Gb6(9)
E|------------------------------------------|
B|-------4-x---------4-x---------4----------|
G|-----3-----3-----3-----3-----3------------|
D|---6-----------6-----------6--------------|
A|------------------------------------------|
E|-6-----------6-----------6----------------|


Part 1
   Ab6(9)
E|------------------------------------------|
B|-------6-x---------6-x---------6----------|
G|-----5-----5-----5-----5-----5------------|
D|---8-----------8-----------8--------------|
A|------------------------------------------|
E|-8-----------8-----------8----------------|


Part 2
   Gm7(11)
E|------------------------------------------|
B|-------6-x---------6-x---------6----------|
G|-----5-----5-----5-----5-----5------------|
D|---8-----------8-----------8--------------|
A|------------------------------------------|
E|-7-----------7-----------7----------------|


Chorus:

Fm7(11)   Gm7(11)  Cm7
        Neon,    neon
Fm7(11)   Gm7(11)  Cm7
        Neon,    neon
Fm7(11)       Gm7(11)  Cm7
        Who knows how long 
     Bb9  Ab9
How long,     how long
         Ab
She can go before she 
 C5  Eb9  Fm7(11)  Ab9  Bb6(9)
Burns      
  C5  Eb9  Fm7(11)  Ab9  Bb6(9)
Away

3nd Part:

Cm
I can't be 
    Eb9    Fm7(11)  Ab9  Bb6(9)
Her angel now           you know 
      Cm
It's not my place 
    Eb9      Fm7(11)  Ab9  Bb6(9)
To hold her down
          Cm
And it's hard for me to
 Eb9     Fm7(11)  Ab9      Bb6(9)
Take a stand          when I would 
 Cm          Eb9   Fm7(11)  Ab9  Bb6(9)
Take her anyway I can

3rd Part Finginer:

Part 1
   Cm               Eb9
E|------------------------------------------|
B|---8--------------4-x---------------------|
G|---8-x-10---------3-x-3-------------------|
D|-----x-10---x---------3---x---------------|
A|------------------------------------------|
E|-0--------0---0/3-------x-----------------|


Part 2
   Fm7(11)      Ab9      Bb6(9)
E|-----------------------------------------|
B|---4------------9-x-x------8-x-x---------|
G|---3-x-3--------8-x-x------7-x-x---------|
D|-----x-6---x----8-x-x-----10-x-x---------|
A|-----------------------------------------|
E|-5-------x----8--------10----------------|


Pre-Chorus:

     Ab6(9)
She comes and goes
     Gm7(11)
And comes and goes
      Gb6(9)
Like no one can

     Ab6(9)
She comes and goes
       Gm7(11)
And no one knows
        Fm7(11)   Gm7(11)
She's slipping through my hands
Ab9               Bb9
    She's always buzzing just like


Chorus:

Fm7(11)   Gm7(11)  Cm7
        Neon,    neon
Fm7(11)   Gm7(11)  Cm7
        Neon,    neon
Fm7(11)       Gm7(11)  Cm7
        Who knows how long 
     Bb9  Ab9
How long,     how long

Interlude:

She can go before she 
 Fm7  Gm7  Abm7  Bbm7
Burns      
          Fm7      Gm7  Abm7  Bbm7
She burns     away
        Fm7  Gm7  Abm7  Bbm7
Oh she burns

Interlude Fingering:

Part 1
       Fm7   Gm7   Abm7    Bbm7
E|-x---------------------------------------|
B|-x----4--x--6--x--7---x---8--------------|
G|-x----5--x--7--x--8---x---9--------------|
D|-x----6--x--8--x--9---x--10--------------|
A|-x-------x-----x------x------------------|
E|-x-0--5--x--7--x--8-8-x---9--------------|


Part 2
       Fm7   Gm7   Abm7    Bbm7
E|-x---------------------------------------|
B|-x----4--x--6---x--7---x---8--8----------|
G|-x----5--x--7---x--8---x---9--9----------|
D|-x----6--x--8---x--9---x--10-10----------|
A|-x-------x------x------x-----------------|
E|-x-0--5--x--7-7-x--8-8-x---9----0--------|


Part 3
E|--------------------------x-x----x-x-----|
B|-4--4-----6----7-----8----x-x----x-x-----|
G|-5--5-----7----8-----9----x-x-12-x-x-12--|
D|-6--6-----8----9----10----x-x-12-x-x-12--|
A|--------------------------x-x-12-x-x-12--|
E|-5--5--7-----8----9-------x-x-11-x-x-11--|


Solo:

Part 1
E|------x----------------------------------|
B|------x---8------------------------------|
G|-8--8-x---7------------------------------|
D|-8--8-x--10------------------------------|
A|-7--7-x----------------------------------|
E|-0--7-x--10--10-10-7-0-10-12-------------|


Part 2
E|-------x----------------------------------|
B|-------x---8------------------------------|
G|---8-8-x---7------------------------------|
D|---8-8-x--10------------------------------|
A|---7-7-x----------------------------------|
E|-0---7-x--10------------------------------|


Part 3
E|-x------11--9/10---x---------------------|
B|-x------11--7/ 8---x----11-8-------------|
G|-x---11-11--7/ 8---x-----8-8-------------|
D|-x-x--8------------x-x---8-8-------------|
A|-x-----------------x---------------------|
E|-x---------------7-x----10---------------|


Part 4
E|---x-------------------------------------|
B|---x---8--8-8----11-10p8-----------------|
G|---x---8-10-8-----8-8--------x-----------|
D|-x-x-x----8-8--x----8----h10-x-----------|
A|---x-------------------------x-----------|
E|---x------0------------------------------|


Part 5
E|-------x------10-8-10--8-----------------|
B|-------x---8---8-8--8--8-11--------------|
G|---8-8-x---7---8-8--8--8--8--------------|
D|---8-8-x--10-----------------------------|
A|---7-7-x---------------------------------|
E|-0---7-x--10-----------------------------|


Part 6
E|-------x---------------------------------|
B|-----8-x---8-----------------------------|
G|---8-8-x---7-----------------------------|
D|---8-8-x--10-----------------------------|
A|-------x-----x-----1-----3-----5---------|
E|-0---7-x--10---0h3---0h5---0h7-----------|


Part 7
E|-------x---------------------------------|
B|-----8-x---8-----------------------------|
G|---8-8-x---7-----------------------------|
D|---8-8-x--10-----------------------------|
A|-------x-----x-----1-----3-----5---------|
E|-0---7-x--10---0h3---0h5---0h7-----------|


Part 8
E|-------x---------------------------------|
B|-----8-x---8-----------------------------|
G|---8-8-x---7-----------------------------|
D|---8-8-x--10-----------------------------|
A|-------x---------------------------------|
E|-0---7-x--10-----------------------------|


Part 9
E|---------------------x-------------------|
B|---------------------x-------------------|
G|---------------------x-------------------|
D|---------------------x-------------------|
A|-x-----1-----3-----5-x-------------------|
E|---0h3---0h5---0h7---x-------------------|


Part 10
E|---------------------x-------------------|
B|---------------------x-------------------|
G|---------------------x-------------------|
D|---------------------x-------------------|
A|-x-----1-----3-----5-x-------------------|
E|---0h3---0h5---0h7---x-------------------|


Part 11
E|-----------------------------------------|
B|-----------------------------------------|
G|-----------------------------------------|
D|-----------------------------------------|
A|-x-----1-----3-----5---------------------|
E|---0h3---0h5---0h7-----------------------|


Part 12
E|-----------------------------x-----------|
B|-----------------------------x-----------|
G|-----------------------------x-----------|
D|-----------------------------x-----------|
A|------8-----5------10------8-x-----------|
E|-0h10---0h7---0h12----0h10---x-----------|


Pre-Chords:

     Ab6(9)
She comes and goes
     Gm7(11)
And comes and goes
      Gb6(9)
Like no one can

     Ab6(9)
She comes and goes
       Gm7(11)
And no one knows
        Fm7(11)   Gm7(11)  Ab
She's slipping through my hands

She's always buzzing just like

Chorus:

Fm7(11)   Gm7(11)  Cm7
        Neon,    neon
Fm7(11)   Gm7(11)  Cm7
        Neon,    neon
Fm7(11)       Gm7(11)  Cm7
        Who knows how long 
     Bb9  Ab9
How long,     how long
         Ab
She can go before she 
 C5  Eb9  Fm7(11)  Ab9  Bb6(9)
Burns      
  C5  Eb9  Fm7(11)  Ab9  Bb6(9)
Away

C5  Eb9  Fm7(11)  Ab9  Bb6(9)


Final:

Part 1
   C5                   Eb9
E|-----------x------------------x-----------|
B|---------8-x----------------4-x-----------|
G|-----------x-10-----------3---x-----------|
D|---10-10---x------0-----3-----x-5---6-----|
A|-----------x------------------x-----------|
E|-0---------x----0-----3-------x---0-------|

   
Part 2
   Fm7(11)           Ab9     Bb6(9)
E|---------x--------------------------------|
B|-------4-x---------------9---------8------|
G|-----3---x-3-----------8---------7--------|
D|---6-----x-----0-----8--------10----------|
A|---------x--------------------------------|
E|-5-------x---0-----8-------10---------10\-|


neon guitar tabs and chords