In Your Atmosphere

In Your Atmosphere Guitar Tab and Chords

In Your Atmosphere Live (Where the Light Is: Live in Los Angeles)

 

In Your Atmosphere Live Guitar Lesson ( In Portuguese)

 

Turning: E B E F# B E

Intro: E9  A6(9) (Riff Intro)

E9                 A6(9)             E9   A6(9)
I don't think I'm gonna go to LA anymore
E9                 A6(9)             E9   A6(9)
I don't think I'm gonna go to LA anymore
E9                A6(9)
I don't know what it's like to land
    C#m7      B11     F#m7
And not race to your door
A9                 B9(11)            E9  A6(9) (passagem)
I don't think I'm gonna go to LA anymore

E9                 A6(9)             E9   A6(9)
I don't think I'm gonna go to LA anymore
E9             A6(9)             E9   A6(9)
I'm not sure that I really ever could
E9                A6(9)
  Hold on to the hotel key
         Cm7     B11    F#m7
in your bedroom neighborhood
 A9                    B9(11)
We sleep walk in Hollywood

Chorus:
F#m7         C#m7   B11
 I'm gonna steer  clear
F#m7             C#m7    B11
  Burn up in your atmosphere
F#m7           C#m7  B11
  I'm gonna steer  clear
         A9/G#
Cus I'd die if I saw you
     C#m7  B11    A9/G# A9
I'd die if I  didn't see you   there
                      B9(11)           E9   A6(9)
So I don't think I'm gonna go to LA anymore

E9                        A6(9)
I don't think I'm gonna go there anymore
E9                          A6(9)
I'd get lost on the boulevard at night
E9                       A6(9)                  C#m7       B11    F#m7
  Without your voice to tell me 'I love you', take a ride
        A9                            B9(11)
The ten and the two is a lonely sight

Chorus:
F#m7         C#m7   B11
 I'm gonna steer  clear
F#m7             C#m7    B11
  Burn up in your atmosphere
F#m7           C#m7  B11
  I'm gonna steer  clear
         A9/G#
Cus I'd die if I saw you
     C#m7  B11        F#m7
I'd die if I  didn't see you
             C#m7   B11
 I'm gonna steer  clear
F#m7             C#m7    B11
  Burn up in your atmosphere
F#m7          C#m7  B11
  I'm gonna steer  clear
         A9/G#
Cus I'd die if I saw you
     C#m7     B11    A9/G#    A9
I'd die if I didn't see you   there
( A9/G#  A9 )
I think I'm gonna stay
All the street lights say 'nevermind'
All the canyon lines say 'nevermind'
Sunset says 'we see this all the time, nevermind'

Intro:

   E9      .    A6(9)
E|--------12-0-----------------------------|
B|--------12-0-----------------------------|
F|--------12-0----0-----0h9p7--------------|
E|-----0-----0------0h7--------------------|
B|---0-------------------------------------|
E|-0------------5--------------------------|


   E9      .    A6(9)
E|--------12-0-----------------------------|
B|--------12-0----------0h9p7--------------|
F|--------12-0----0------------------------|
E|-----0-----0------0h7--------------------|
B|---0-------------------------------------|
E|-0------------5--------------------------|


Estrofe:

   E9      .    A6(9)
E|--------12-0-------0-0-0-0-0-0-0---------|
B|--------12-0-------0-0-0-0-0-0-0---------|
F|--------12-0-------0-0-0-0-0-0-0---------|
E|-----0-----0-------0-0-0-0-0-0-0---------|
B|---0-------------------------------------|
E|-0------------5--------------------------|


   E9      .    A6(9)
E|--------12-0----------------0------------|
B|--------12-0----------------0------------|
F|--------12-0-----0-----0h9--0------------|
E|-----0-----0-------0h7------0------------|
B|---0-------------------------------------|
E|-0------------5--------------------------|


Passage 1:

E|--0-0-0-----5-5-5-5--5-----4-4-----------|
B|--0-0-0-----7-7-7-7--7-----5-5-----------|
F|--0-0-0--0-------------------------------|
E|--0-0-0--0-------------------------------|
B|--0------0-------------------------------|
E|--0------5------------0------------------|

    ↓ ↑ ↑  ↓  ↑ ↑ ↓ ↑ ↑      ↓ ↓


E|----0--0--0--0--0----0-0-----------------|
B|----5--5--5--5--5----0-0-----------------|
F|----7--7--7--7--7----5-5-----------------|
E|----0--0--0--0--0----0-0-----------------|
B|-----------------------------------------|
E|--5---------------0----------------------|

    ↓ ↓  ↓  ↓  ↓  ↓ ↓  ↓ ↓


E|--0-0-0-----5-5-5-5--5-----4-4-----------|
B|--0-0-0-----7-7-7-7--7-----5-5-----------|
F|--0-0-0--0-------------------------------|
E|--0-0-0--0-------------------------------|
B|--0------0-------------------------------|
E|--0------5------------0------------------|

    ↓ ↑ ↑  ↓  ↑ ↑ ↓ ↑ ↑      ↓ ↓


E|-----0-0-0-0---0-------------------------|
B|-----0-0-0-0---0-------------------------|
F|-----0-0-0-0h7-0-------------------------|
E|-----0-0-0-0---0-------------------------|
B|-----------------------------------------|
E|--5--------------------------------------|

    ↓  ↑ ↓ ↑ ↓   ↑

Passage 2:

E|--0-0-0-0--0--0--0--0--0--0--------------|
B|--5-7-9/12-12-12-12-12-12-12-------------|
F|--0-0-0-0--0--0--0--0--0--0--------------|
E|--0--------0--0--0--0--0--0--------------|
B|--0--------0--0--0--0--0--0--------------|
E|--0--------10-10-10-10-10-10-------------|

    ↓ ↓ ↓    ↓  ↑  ↓  ↑  ↓  ↑


E|-0--0--0--0--0--0---0--0--0--0--0--0-----|
B|-10-10-10-10-10-10--5--5--5--5--5--5-----|
F|-0--0--0--0--0--0---0--0--0--0--0--0-----|
E|-0--0--0--0--0--0---0--0--0--0--0--0-----|
B|-0--0--0--0--0--0---0--0--0--0--0--0-----|
E|-9--9--9--9--9--9---5--5--5--5--5--5-----|

   ↓  ↑  ↓  ↑  ↓  ↑   ↓  ↑  ↓  ↑  ↓  ↑


E|-0---0--0--0--0--0---0--0--0--0--0--0----|
B|-4/5-5--5--5--4--4---4--4--4--4--4--4----|
F|-0---0--0--0--0--0---0--0--0--0--0--0----|
E|-0---0--0--0--0--0---0--0--0--0--0--0----|
B|-0---0--0--0--0--0---0--0--0--0--0--0----|
E|-9---9--9--9--9--9---5--5--5--5--5--5----|

   ↓   ↑  ↓  ↑  ↓  ↑   ↓  ↑  ↓  ↑  ↓  ↑


E|-0---0--0--0--0--0---0--0--0--0--0--0----|
B|-4/5-5--5--5--5--5---5--5--5--5--5--5----|
F|-0---0--0--0--0--0---0--0--0--0--0--0----|
E|-0---0--0--0--0--0---0--0--0--0--0--0----|
B|-0---0--0--0--0--0---0--0--0--0--0--0----|
E|-9---9--9--9--9--9---5--5--5--5--5--5----|

   ↓   ↑  ↓  ↑  ↓  ↑   ↓  ↑  ↓  ↑  ↓  ↑


In Your Atmosphere guitar tabs and chords