Half Of My Heart

Half Of My Heart Guitar Tab and Chords

 

 

Half Of My Heart

 

Half Of My Heart Guitar Lesson

 

 

Intro base: Bb  F  C  Dm7
            Bb  F  C
            Bb  F  C  Dm7  Bb

Intro Fingering:

E|----------------------------------------------------|
B|----------------------------------------------------|
G|--------0--------0--------------0--------0--2-------|
D|-----3--------3---------------5--------3------------|
A|--1-----------------3------/3--------5--------------|
E|-----------1----------------------------------------|


E|-----------------------------------------------------|
B|-----------------------------------------------------|
G|--------0--------0--------------0--------0-------0---|
D|-----3--------3---------------5--------5-------------|
A|--1-----------------3------/3--------3------3--------|
E|-----------1-----------------------------------------|


E|-----------------------------------------------------|
B|-----------------------------------------------------|
G|--------0--------0--------------0--------0--2--------|
D|-----3--------3---------------5--------3-------------|
A|--1-----------------3------/3--------5---------------|
E|-----------1-----------------------------------------|


E|------------------------------------------------------|
B|------------------------------------------------------|
G|--------0--------0----------------0--------0----------|
D|-----3--------3---------3------3--------3-----3-------|
A|--1--------1---------1------1--------1-----------0----|
E|------------------------------------------------------|


Bb      F           C        Dm7     Bb       F  C
  I was born in the arms of imaginary friends
Bb        F            C           Dm7          Bb      F  C
  Free to roam , made a home out of everywhere I've been
Bb                      F
Then you come crashing in
         C       Dm7
Like the realest thing
Bb                      F                  C
Trying my best to understand all that your love can bring

    Bb         F             C          Dm7
Oh, half of my heart's got a grip on the situation
Bb         F           C
Half of my heart takes time
Bb         F               C          Dm7
Half of my heart's got the right mind to tell you that
  Bb
I can`t keep loving you
          C     F C Dm7 Bb
Oh, half of my heart

( F  C  Dm7  Bb )

Bb      F         C               Dm7        Bb  F   C
  I was made to believe I'd never love somebody else
Bb         F                C           Dm7     Bb    F   C
  I made a plan, stayed the man who can only love himself
Bb                    F
Lonely was the song I sang
         C       Dm7
'Til the day you came
Bb                  F                   C
Showing me a better way and all that my love can bring

   Bb         F             C          Dm7
Oh, half of my heart's got a grip on the situation
Bb         F           C
Half of my heart takes time
Bb         F               C          Dm7
Half of my heart's got the right mind to tell you that
  Bb
I can`t keep loving you
          C     F C Dm7 Bb               F C Dm Bb
Oh, half of my heart   with half of my heart

     F         Am7
Your faith is strong
          Cm7                 Gm
But I can only fall short for so long
        F           Am7
Time to hold, later on
         Cm7                    Gm
You will hate that I never gave more to you
     Bb
than half of my heart
      C
But I can't stop loving you
      Bb
But I can't stop loving you
      C
But I can't stop loving you

                 Bb         F    C Dm7
With half of my, half of my heart
    Bb         F    C
Oh, half of my heart
Bb         F             C         Dm7
Half of my heart's got a real good imagination
Bb         F           C
Half of my heart's got you
Bb         F             C          Dm7
Half of my heart's got a right mind to tell you
     Bb         F           C
That half of my heart won't do

Bb         F          C       Dm7          Bb           F         C
Half of my heart is a shotgun wedding to a bride with a paper ring
Bb         F            C         Dm7
Half of my heart is the part of a man who's never
Bb          F        C
truly loved anything

    Bb         F    C Dm7
Oh, half of my heart
    Bb         F    C
Oh, half of my heart
Bb         F    C Dm7
Half of my heart
    Bb         F    C
Oh, half of my heart
Bb         F    C Dm7
Half of my heart
    Bb         F    C
Oh, half of my heart
Bb         F    C Dm7  .....fading
Half of my heart

half of my heart guitar tabs and chords