Gravity

Gravity Guitar Tabs and Chords

 

 

Gravity Live (Where the Light Is: Live in Los Angeles)

 

Gravity Guitar Lesson 1:  Intro and Chords

 

Gravity Guitar Lesson 2:  Solo

Intro: G  G  C  C

G                   C
Gravity is working against me
G                             C
And gravity wants to bring me down

        Am7
Oh I'll never know what makes this man
     D7
With all the love that his heart can stand
Gm/Bb            Ebmaj7        D7
Dream of ways to throw it all away

G                   C
Gravity is working against me
    G                         C
And gravity wants to bring me down

   Am7
Oh twice as much ain’t twice as good
    D7
And can't sustain like one half could
Gm/Bb
It's wanting more
             Ebmaj7        D7
That's gonna send me to my knees

Solo: G  G  C  C (2x)


E|--------------------------|
B|-10h12-12/15-12-10-12~----|
G|--------------------------|
D|--------------------------|
A|--------------------------|
E|--------------------------|


E|---------------------------|
B|-10h12-12/17-15-12-10-12/8-|
G|---------------------------|
D|---------------------------|
A|---------------------------|
E|---------------------------|


E|------19-----17---------19-17----17-|
B|-15-17--17-15------15-17----15-17---|
G|----------------------------------|
D|----------------------------------|
A|----------------------------------|
E|----------------------------------|


E|------19b21r19b21------------------------17/19--------|
B|-15-17-----------20-----------------15h17-----15/10-10|
G|-------------------19b21r19b21r19-17------------------|
D|------------------------------------------------------|
A|------------------------------------------------------|
E|------------------------------------------------------|


   Am7
Oh twice as much ain’t twice as good
    D7
And can't sustain like one half could
Gm/Bb
It's wanting more
             Ebmaj7        D7
That's gonna send me to my knees

   G                       C
Oh gravity, stay the hell away from me
   G                        C
Oh gravity has taken better men than me - how can that be?
                       G
Just keep me where the light is
                       C
Just keep me where the light is
                      G
Keep you me where the light is
                          C
Come on keep me where the light is

gravity