Free Fallin’

Free Fallin’ Guitar Tabs and Chords

 

 

Free Fallin’ Live (Where the Light Is: Live in Los Angeles)

 

Free Fallin’ Guitar Lesson ( In Portuguese)

 

Capo on  3rd fret

Intro:

1st Part:


    D5     G5(9) D/F#  A
E|------------------------------------------|
B|--3----------3--3----2-----2h3------------|
G|----2--------2--2----2-----2h4------------|
D|--0---0------0--0----2---2-----2----------|
A|---------------------0-0---------0--------|
E|--------0-3--3--2-------------------------|


2nd  Part:


    D/F#       G9   D/F#  A
E|------------------------------------------|
B|--------3p2-----0--3----2-----2h3---------|
G|------2------2--2--2----2-----2h4---------|
D|----0--------0--0--0----2---2-----2-------|
A|------------------------0-0---------------|
E|--2----------3--3--2----------------0-----|


3rd Part:


   D/F#        G9       D/F#  A
E|------------------------------------------|
B|--------3p2--0---0---0-3----2-------2h3---|
G|------2------2---2---2-2----2-----2-------|
D|----0--------0---0---0-0----2---2-------0-|
A|----------------------------0-0-----------|
E|--2-------x--3-3-x-3-3-2------------------|


4th Part:


   D/F#         G9          D/F# A
E|------------------------------------------|
B|--------3p2---0---------0--3---2-------2--|
G|------2-------2---2-2---2--2---2-----2----|
D|----0---------0---0-0---0--0---2---2------|
A|-------------------------------0-0--------|
E|--2---------2-3-3-x---3-3--2--------------|


(Fingering First Part, and Chords Second Part)


   D/F#  G5(9)         D/F#   A4
E|-------------------------x----------------|
B|-3-3-3--3-3---3-3---3-3--x--3-3---3-3-----|
G|-2-2-2--2-2---2-2---2-2--x--2-2---2-2-----|
D|-----0--------0----------x--------0-------|
A|-------------------------x--0---0-----0---|
E|-2---x--3---3-x---3-3-2--x--------x-------|


First Part:
         D/F#  G5(9)   D/F#    A4
She's a good  girl, loves her mama
       D/F#  G5(9)        D/F#  A4
Loves Je____sus and America    too
         D/F#  G5(9)        D/F#  A4
She's a good  girl, crazy 'bout   Elvis
       D/F#  G5(9)           D/F#  A4
Loves hor___ses and her boyfriend too

( D/F#  G5(9)  D/F#  A4 )

        D/F#  G5(9)     D/F#  A4
It's a long  day living in Reseda
            D/F#  G5(9)         D/F#      A4
There's a free___way runnin' through the yard
           D/F#  G5(9)             D/F#  A4
And I'm a bad   boy 'cause I don't even miss her
       D/F#  G5(9)       D/F#    A4
I'm a bad   boy for breakin her heart

Chords:
          D/F#  G5(9)  D/F#  A4
And I'm free,
      D/F#     G5(9)  D/F#  A4
Free fallin', fallin'
          D/F#  G5(9)  D/F#  A4
And I'm free,
      D/F#     G5(9)  D/F#  A4
Free fallin', fallin'

Second Part:
         D/F#  G5(9)           D/F#      A4
All the vam___pires walkin' through the valley
           D/F#  G5(9)        D/F# A4
They move west  down Ventura Boulevard
             D/F#  G5(9)            D/F#     A4
And all the bad   boys are standing in the shadows
         D/F#  G5(9)                D/F#  A4
And the good  girls are home with broken hearts

Chords:
          D/F#  G5(9)  D/F#  A4
And I'm free,
      D/F#     G5(9)  D/F#  A4
Free fallin', fallin'
          D/F#  G5(9)  D/F#  A4
Now I'm free,
      D/F#     G5(9)  D/F#  A4
Free fallin', fallin'

Third Part:

D/F#       G5(9)             D/F#  A4
     Free fallin', now I'm free   fallin', now I'm
D/F#       G5(9)             D/F#  A4
     Free fallin', now I'm free   fallin', now I'm
D/F#       G5(9)             D/F#  A4
     Free fallin', now I'm free   fallin', now I'm
D/F#       G5(9)             D/F#  A4
     Free fallin', now I'm free   fallin'

Fourth Part:

          D/F#  G5(9)     D/F#  A4
I wanna glide  down over Mul___holland
          D/F#  G5(9)      D/F#       A4
I wanna write  her, her name in the sky
            D/F#  G5(9)   D/F#  A4
I wanna a free   fall out into nothin'
              D/F#   G5(9)     D/F#   A4
Oh I´m gonna leave this world for a while

Final Part:

              D/F#  G5(9)  D/F#  A4
And now I'm free,
      D/F#     G5(9)  D/F#  A4
Free fallin', fallin'
          D/F#  G5(9)  D/F#  A4
Now I'm free,
      D/F#     G5(9)  D/F#  A4
Free fallin', fallin'

          D/F#  G5(9)  D/F#  A4
And I'm free,
      D/F#     G5(9)  D/F#  A4
Free fallin', fallin'
          D/F#  G5(9)  D/F#  A4
Now I'm free,
      D/F#     G5(9)  D/F#  A4
Free fallin', fallin'

      D/F#     G5(9)  D/F#  A4
Free fallin', fallin'
      D/F#     G5(9)  D/F#  A4
Free fallin', fallin'
      D/F#     G5(9)  D/F#  A4
Free fallin', fallin'

Free faillin guitar tab and chords